Desi Chords:

0 comment(s) so far...have your say!

Teri Ore (Singh Is Kinng) : Tabs


qrcode for - Teri Ore (Singh Is Kinng) : TabsSong: Teri Ore
Artist: Shreya Ghosal, Rahat Fateh Ali Khan, Pritam
From: Singh Is Kinng (2008)


View:
{ Chords } - { Strum } - { Tabs } - { Lyrics } - { PDF } - { Videos }



Guitar Tabs:
Basic Verse:

Dil kho gaya; ho gaya, kisi ka.....Kheenchey mujhe koi dore, teri ore.
E------------------------------------
A------------------------------------
D-4---2-420--------------------------
G--222-----220-0h2-------------------
B------------------------------------
e------------------------------------x4


Teri ore, teri ore, teri ore, hai Rabba!
E----------------------------------------
A----------------------------------------
D-4------------4-42---4-----------545-42-
G--00h2--2--2-0-0------00h2--2--2--------
B------03-03---------------03-03---------
e----------------------------------------
Teri ore, teri ore, teri ore...
E----------------------------------------
A----------------------------------------
D-4------------4-42---4------------------
G--00h2--2--2-0-0------00h2--2--2--------
B------03-03---------------03-03---------
e----------------------------------------


What do these symbols mean? Reading Tabs...
http://desichords.blogspot.com/2010/09/teri-ore-singh-is-kinng-tabs.html




Liked 'Teri Ore (Singh Is Kinng) : Tabs' enough to share / save?

Teri Ore (Singh Is Kinng) : Tabs

Comments: 0 comment(s)...have your say!

DesiChords Tip:

Tune your guitar before you start playing.^Top^


 


# Hosted for free on Blogspot.com / "Powered by Blogger." Get yours today at www.blogger.com
# The material collected and made available through these sites is exclusively intended for private study, research & to provide study material for musicians - in good faith. (Copyrights)
# This site uses cookies to offer you a better browsing experience. Kindly read the Terms of Service & Privacy policy and continue only if you agree.
# Copyrights, wherever applicable: IndianGuitarChords.Blogspot.Com (™ ©) / Arindam Sarkar © - MMVIII - MMXVI