Desi Chords:

0 comment(s) so far...have your say!

Yara Sili Sili (Lekin) : Tabs


qrcode for - Yara Sili Sili (Lekin) : TabsSong: Yara Seeli Seeli
Artist: Lata Mangeshkar, Hridayanath Mangeshkar, Gulzar
From: Lekin... (1991)


View:
{ Chords } - { Strum } - { Tabs } - { Lyrics } - { PDF } - { Videos }



Guitar Tabs:
1st verse:1

Yaara sili sili birha ki raat ka jalna...
E------------------------------------
A------------------------------------
D------------------------------------
G---6-------------------6---36-------
B-64-466-6676--64-44--64-466--66-44--
e------------64-----4----------------

E------------------------------------
A------------------------------------
D------------------------------------
G---6--------------------------------
B-64-466-6676--64-444----------------
e------------64----------------------

Yeh bhi koi jeena hai?
E---------------------------------------
A---------------------------------------
D---------------------------------------
G---------------------------------------
B------------------------(11)-----------
e-(11)(11)(11)(11)-9h(11)----9h(11)(11)- x2

E------------------------------------
A------------------------------------
D------------------------------------
G-------------6----------------------
B-------66--64-466-6676--64-444------
e-(11)96--4------------64------------


Basic, other verses:
Tooti hui chudiyon se / Pairon mein na saaya koi
E----------------------------------------
A----------------------------------------
D----------------------------------------
G-6------------------6-------------------
B--466-66-76--64-44---466-66-76--64-444--
e-----------64-----4-----------64-------- x2

(rest similar)


What do these symbols mean? Reading Tabs...
http://desichords.blogspot.com/2010/09/yara-sili-sili-lekin-tabs.html




Liked 'Yara Sili Sili (Lekin) : Tabs' enough to share / save?

Yara Sili Sili (Lekin) : Tabs

Comments: 0 comment(s)...have your say!

DesiChords Tip:

Tune your guitar before you start playing.^Top^


 


# Hosted for free on Blogspot.com / "Powered by Blogger." Get yours today at www.blogger.com
# The material collected and made available through these sites is exclusively intended for private study, research & to provide study material for musicians - in good faith. (Copyrights)
# This site uses cookies to offer you a better browsing experience. Kindly read the Terms of Service & Privacy policy and continue only if you agree.
# Copyrights, wherever applicable: IndianGuitarChords.Blogspot.Com (™ ©) / Arindam Sarkar © - MMVIII - MMXVI