Desi Chords:

0 comment(s) so far...have your say!

Bande Mein Tha Dum, Vande Maataram (Munna Bhai) : Tabs


qrcode for - Bande Mein Tha Dum, Vande Maataram (Munna Bhai) : TabsSong: Bande Mein Tha Dum, Vande Maataram
Artist: Shreya Ghoshal, Sonu Nigam, Panab Biswas
From: Lage Raho Munna Bhai (2006)


View:
{ Chords } - { Strum } - { Tabs } - { Lyrics } - { PDF } - { Videos }



Guitar Tabs:
Basic Verse:
Maati pukare, tujhe desh pukare...
E-------------------------------------
A-------------------------------------
D-------------------------------------
G-------------------------------------
B-------------------------------------
e-(13)(13)(13)(12)(13)(12)6-66h86-6s5-

Aaja re aab, aaja re!
E-------------------------------------
A-------------------------------------
D-------------------------------------
G-------------------------------------
B-------------------------------------
e-(13)(13)(13)(12)(13)(12)6-6----8p6--

Bhoole hum raahein, humein raah dikhane,
E-------------------------------------
A-------------------------------------
D-------------------------------------
G-------------------------------------
B-------------------------------------
e-(13)(13)(13)(12)(13)(12)6-66h86-6s5-

Aaje re raah dikha de!
E-------------------------------------
A-------------------------------------
D-------------------------------------
G-------------------------------------
B-------------------------------------
e-(13)(13)(13)(12)(13)(12)6-6----8p6--


Basic Chorus:
Ainak pehne, laathi pakde, chalte thein woh shaan se...
E----------------------------------------------
A----------------------------------------------
D----------------------------------------------
G-5--------------------------------------------
B--6668--------------------8-8-8-8-----6-6h888-
e------5556-8(10)86-865s3---5-5-5-5-685--------

Ho! Kad tha unka chhota sa aur sarpat unki chaal re...
E----------------------------------------------
A----------------------------------------------
D----------------------------------------------
G-5--------------------------------------------
B--6668--------------------8-8-8-8-----6-6h888-
e------5556-8(10)86-865s3---5-5-5-5-685--------

Bande mein tha dum - Vande Maataram!
E------------------------------------
A------------------------------------
D------------------------------------
G------75-------------75-------------
B-66666--666-6h8-66666--666-6h8------
e------------------------------------ (repeats)

Vande.eee..eee..eee..eee..eee...Maataram!
E-------------------------------------------
A-------------------------------------------
D-------------------------------------------
G-------------------------------------------
B-6----------------------------(10)p8s6-686-
e--8-(10)p8s6-8p6s5-6p5s3-6p5s3-------------


What do these symbols mean? Reading Tabs...
http://desichords.blogspot.com/2010/10/bande-mein-tha-dum-vande-maataram-munaa.html




Liked 'Bande Mein Tha Dum, Vande Maataram (Munna Bhai) : Tabs' enough to share / save?

Bande Mein Tha Dum, Vande Maataram (Munna Bhai) : Tabs

Comments: 0 comment(s)...have your say!

DesiChords Tip:

Tune your guitar before you start playing.^Top^


 


# Hosted for free on Blogspot.com / "Powered by Blogger." Get yours today at www.blogger.com
# The material collected and made available through these sites is exclusively intended for private study, research & to provide study material for musicians - in good faith. (Copyrights)
# This site uses cookies to offer you a better browsing experience. Kindly read the Terms of Service & Privacy policy and continue only if you agree.
# Copyrights, wherever applicable: IndianGuitarChords.Blogspot.Com (™ ©) / Arindam Sarkar © - MMVIII - MMXVI