Desi Chords:

0 comment(s) so far...have your say!

Chhod Aaye Hum Woh Galiyaan (Maachis) : Tabs


qrcode for - Chhod Aaye Hum Woh Galiyaan (Maachis) : TabsSong: Chhod Aaye Hum
Artist: Hariharan, Suresh Wadkar, Vinod Sehgal, KK
From: Maachis (1996)


View:
{ Chords } - { Strum } - { Tabs } - { Lyrics } - { PDF } - { Videos }



Guitar Tabs:
Basic Intro / Interlude / Outro:
E------------------------------------
A------------------------------------
D------------------------------------
G------------------------------------
B--8-8-68---8-8-68--8-8-68---8-8-68--
e-8-8-8----8-8-8---8-8-8----8-8-8----


Basic Chorus:

Chhod aaye hum woh galiyaan!
E------------------------------------
A------------------------------------
D-5-----------8p6-6------------------
G--5--------55-----5--------55-------
B---35-3h5-3--------343h4-43---------
e------------------------------------


Basic Verse:

Jahan teri eidi se, dhoop udaa karti thi...
E----------------------------------------
A----------------------------------------
D----------------------------------------
G---------------------------7------------
B-----5s655----5s655h6-66665-6-666-----5-
e-3333-----3-33-------------------4-333--

Latoon se uljhi lipti ek raat...
E----------------------------------------
A----------------------------------------
D----------------------------------------
G----------------------------------------
B--8-8-688---8-8-688-8s9-9-9-989-9-9-989-
e-8-8-8-----8-8-8---------6-6-----6-6----


What do these symbols mean? Reading Tabs...
http://desichords.blogspot.com/2010/11/chhod-aaye-hum-woh-galiyaan-maachis.html




Liked 'Chhod Aaye Hum Woh Galiyaan (Maachis) : Tabs' enough to share / save?

Chhod Aaye Hum Woh Galiyaan (Maachis) : Tabs

Comments: 0 comment(s)...have your say!

DesiChords Tip:

Tune your guitar before you start playing.^Top^


 


# Hosted for free on Blogspot.com / "Powered by Blogger." Get yours today at www.blogger.com
# The material collected and made available through these sites is exclusively intended for private study, research & to provide study material for musicians - in good faith. (Copyrights)
# This site uses cookies to offer you a better browsing experience. Kindly read the Terms of Service & Privacy policy and continue only if you agree.
# Copyrights, wherever applicable: IndianGuitarChords.Blogspot.Com (™ ©) / Arindam Sarkar © - MMVIII - MMXVI