Desi Chords:

0 comment(s) so far...have your say!

Pal Pal Har Pal (Lage Raho Munaa Bhai) : Tabs, Notes


qrcode for - Pal Pal Har Pal (Lage Raho Munaa Bhai) : Tabs, NotesSong: Pal Pal Har Pal
Artist: Shreya Ghoshal, Sonu Nigam
From: Lage Raho Munaa Bhai (2006)


View: {Chords} - {Strum & Analysis} - {Tabs} - {Plain Lyrics} - {Song & Videos}


Guitar Tabs:
Basic Chorus:
Pal pal pal pal, har pal, har pal....
E------------------------------------
A------------------------------------
D------------------------------------
G-46--------------4------------------
B----7-7-7-7-7--75-75-575-575--------
e---4---4---4--4---------------------

Dil dil dil dil mein machi, hai machi...
E------------------------------------
A------------------------------------
D------------------------------------
G------------------------------------
B-57--------------7------------------
e---45-575-575-754-54-545-545--------

Kaise katega pal, har pal, har pal...
E------------------------------------
A------------------------------------
D------------------------------------
G------------------6-----------------
B---75-7-7-77-7--75-7-5-575-575------
e-54--4---4--4--4--------------------


Basic Verse:
O humsafar, lagta hai darr...
E------------------------------------
A------------------------------------
D------------------------------------
G---------------6-66-----------------
B-57-7-77---57-7----7-45-------------
e---4----454--4----------------------

Is pal mein, simtey umaar...
E------------------------------------
A------------------------------------
D------------------------------------
G---------------6-66-----------------
B-57-7-77---57-7----7-45-------------
e---4----454--4----------------------


Original Scale: E major


Learn What do these symbols mean: Reading Tabs...
http://desichords.blogspot.com/2010/11/pal-pal-har-pal-lage-raho-munaa-bhai.html




Liked 'Pal Pal Har Pal (Lage Raho Munaa Bhai) : Tabs, Notes' enough to share / save?

Pal Pal Har Pal (Lage Raho Munaa Bhai) : Tabs, Notes

Comments: 0 comment(s)...have your say!

DesiChords Tip:

Tune your guitar before you start playing.^Top^


 


# Hosted for free on Blogspot.com / "Powered by Blogger." Get yours today at www.blogger.com
# The material collected and made available through these sites is exclusively intended for private study, research & to provide study material for musicians - in good faith. (Copyrights)
# This site uses cookies to offer you a better browsing experience. Kindly read the Terms of Service & Privacy policy and continue only if you agree.
# Copyrights, wherever applicable: IndianGuitarChords.Blogspot.Com (™ ©) / Arindam Sarkar © - MMVIII - MMXVI