Desi Chords:

0 comment(s) so far...have your say!

Hamari Hi Mutthi Mein (Prahaar) : Tabs


qrcode for - Hamari Hi Mutthi Mein (Prahaar) : TabsSong: Hamari Hi Mutthi Mein
Artist: Manna Dey
From: Prahaar: The Final Attack (1991)


View:
{ Chords } - { Strum } - { Tabs } - { Lyrics } - { PDF } - { Videos }



Guitar Tabs:
Basic Verse:

Humari hi muththi mein aakaash saaraa...
E------------------------------------
A--------------2-2-------------------
D-4s66-666p4-44---44-444666-66----6--
G-----------------------------2-42---
B------------------------------------
e------------------------------------ x2

Kabhi na dhale jo, woh hi sitaara...
E------------------------------------
A------------------------------------
D----------------7-----7-664-46------
G-444-444-66-666--66-44--------4-----
B--------5---------------------------
e------------------------------------

Humari hi muththi mein aakaash saaraa...
E------------------------------------
A--------------2-2-------------------
D-4s66-666p4-44---44-444666-66----6--
G-----------------------------2-42---
B------------------------------------
e------------------------------------


What do these symbols mean? Reading Tabs...
http://desichords.blogspot.com/2010/12/hamari-hi-mutthi-mein-tabs.html




Liked 'Hamari Hi Mutthi Mein (Prahaar) : Tabs' enough to share / save?

Hamari Hi Mutthi Mein (Prahaar) : Tabs

Comments: 0 comment(s)...have your say!

DesiChords Tip:

Tune your guitar before you start playing.^Top^


 


# Hosted for free on Blogspot.com / "Powered by Blogger." Get yours today at www.blogger.com
# The material collected and made available through these sites is exclusively intended for private study, research & to provide study material for musicians - in good faith. (Copyrights)
# This site uses cookies to offer you a better browsing experience. Kindly read the Terms of Service & Privacy policy and continue only if you agree.
# Copyrights, wherever applicable: IndianGuitarChords.Blogspot.Com (™ ©) / Arindam Sarkar © - MMVIII - MMXVI