Desi Chords:

0 comment(s) so far...have your say!

Phir Wohi Raat Hai (Kishore) : Tabs


qrcode for - Phir Wohi Raat Hai (Kishore) : TabsSong: Phir Wohi Raat Hai
Artist: Kishore Kumar, Rahul Dev Burman
From: Ghar (1978)


View:
{ Chords } - { Strum } - { Tabs } - { Lyrics } - { PDF } - { Videos }



Guitar Tabs:
Phir wohi raat hai - phir wohi raat hai khwaab ki.
E------------------------------------
A-5-6-6-------------------55---------
D--3---53-3-6-8p6p5-3s555------------
G----------3-------------3-----------
B------------------------------------
e------------------------------------

Ho! Raat-bhar khwaab mein, dekha karengein tumhey.
E------------------------------------
A--------------------------5---------
D-----------------------5---3-5------
G-3-33-55-7p5p3-535s7-32--3----53----
B-----3------------------------------
e------------------------------------

Masoom-si neend mein, jab koi sapna chaley...
E-------------------------------------------
A----------6-----------------------6--------
D----53-5-3--3h444-643-------53-5-3-3h44----
G--53--3--------------23---53--3--------333-
B-3-----------------------3-----------------
e-------------------------------------------

Ho! Yeh raat hai khwaab ki; khwaab ki raat hai...
E--------------------------------------
A-------------------------5------------
D----------5--33-35--------3-5---------
G-333-532-2--2--2--------3----53-6-5-3-
B----3---------------------------------
e--------------------------------------


What do these symbols mean? Reading Tabs...
http://desichords.blogspot.com/2011/02/phir-wohi-raat-hai-kishore-tabs.html




Liked 'Phir Wohi Raat Hai (Kishore) : Tabs' enough to share / save?

Phir Wohi Raat Hai (Kishore) : Tabs

Comments: 0 comment(s)...have your say!

DesiChords Tip:

Tune your guitar before you start playing.^Top^


 


# Hosted for free on Blogspot.com / "Powered by Blogger." Get yours today at www.blogger.com
# The material collected and made available through these sites is exclusively intended for private study, research & to provide study material for musicians - in good faith. (Copyrights)
# This site uses cookies to offer you a better browsing experience. Kindly read the Terms of Service & Privacy policy and continue only if you agree.
# Copyrights, wherever applicable: IndianGuitarChords.Blogspot.Com (™ ©) / Arindam Sarkar © - MMVIII - MMXVI