Desi Chords:

0 comment(s) so far...have your say!

Sayonee - Chaayn Ek Pal Nahi (Junoon) : Tabs


qrcode for - Sayonee - Chaayn Ek Pal Nahi (Junoon) : TabsSong: Sayonee
Artist: Junoon
From: Azadi (1997)


View:
{ Chords } - { Strum } - { Tabs } - { Lyrics } - { PDF } - { Videos }



Guitar Tabs:
Intro Chords: |Dm---|Bb-Dm-|C--Bb-|Am-Dm~|

Intro Tabs:
E----------------------------------------
A----------------------------------------
D----------------------------------------
G----------------------------------------
B-------------------------(10)----(10)---
e-565565565565-686686565565-(13)(13)-(13)

E--------------------------------------------------
A--------------------------------------------------
D--------------------------------------------------
G--------------------------------------------------
B---(12)---------------------------------------865-
e(13)-(12)(10)(10)(12)(10)-(13)(12)(10)88865-65----


Basic Chorus:
Oh Sayonee!  Oh Sayonee!
E------------------------
A------------------------
D-77---------777---------
G----------7-----------7-
B---6-5-6p5-----6-5-6p5--
e------------------------

Chaayn ek pal nahi! Chaayn ek...
E--------------------------------------------
A--------------------------------------------
D--------------------------------------------
G------------------------------------------7-
B------------------------8p6-668-6h8-55h6-5--
e3h5555h6-5555655-5555655-------5------------

Oh Sayonee!  Oh Sayonee!
E------------------------
A------------------------
D-77---------777---------
G----------7-----------7-
B---6-5-6p5-----6-5-6p5--
e------------------------


Basic Verse (Verse 1):
Kaun modey muhaar?...
E--------------------------------------------------
A-----------------------------------------87-78----
D--------7757s8-----------------------5788-----75--
G-7776h77-----------7-767-------67-----------------
B--------------656p5-----656--65--55p3-------------
e---------------------------56---------------------

Chaayn ek pal nahi! Chaayn ek...
E--------------------------------------------
A--------------------------------------------
D--------------------------------------------
G------------------------------------------7-
B------------------------8p6-668-6h8-55h6-5--
e3h5555h6-5555655-5555655-------5------------

Oh Sayonee!  Oh Sayonee!
E------------------------
A------------------------
D-77---------777---------
G----------7-----------7-
B---6-5-6p5-----6-5-6p5--
e------------------------


What do these symbols mean? Reading Tabs...
http://desichords.blogspot.com/2011/03/sayonee-chaayn-ek-pal-nahi-junoon-tabs.html




Liked 'Sayonee - Chaayn Ek Pal Nahi (Junoon) : Tabs' enough to share / save?

Sayonee - Chaayn Ek Pal Nahi (Junoon) : Tabs

Comments: 0 comment(s)...have your say!

DesiChords Tip:

Tune your guitar before you start playing.^Top^


 


# Hosted for free on Blogspot.com / "Powered by Blogger." Get yours today at www.blogger.com
# The material collected and made available through these sites is exclusively intended for private study, research & to provide study material for musicians - in good faith. (Copyrights)
# This site uses cookies to offer you a better browsing experience. Kindly read the Terms of Service & Privacy policy and continue only if you agree.
# Copyrights, wherever applicable: IndianGuitarChords.Blogspot.Com (™ ©) / Arindam Sarkar © - MMVIII - MMXVI