Desi Chords:

0 comment(s) so far...have your say!

Ruk Ja O Dil Deewane (DDLJ) : Tabs


qrcode for - Ruk Ja O Dil Deewane (DDLJ) : TabsSong: Ruk Ja O Dil Deewane
Artist: Udit Narayan
From: Dilwale Dulhania Le Jayenge (DDLJ) (1995)


View:
{ Chords } - { Strum } - { Tabs } - { Lyrics } - { PDF } - { Videos }



Guitar Tabs:
Basic Chorus:
Ruk ja! O dil deewane! Puchhoon to main zaraa...
E-------------------------------------
A-7-7-------7-7-----7-7-------7-7-----
D-7-7--7--5-7-7--77-7-7--7--5-7-7--77-
G----64-44-----64------64-44-----64---
B-------------------------------------
e-------------------------------------

Paas woh aaye toh, chhoonke main dekhoon zaraa.
E-----------------------------------------
A----------------------7-7-------7-7------
D-7------------------7-7-7--7--5-7-7---77-
G----7--4677644-4h6p4-----64-44------64---
B--55-55----------------------------------
e-----------------------------------------


Basic Verse:
Dekhey woh idhar, haanske bekhabar -
E------------------------------------------
A------------------------------------------
D--------77-----77-75-57-------------------
G-6p44h64--64h64--------4-467-7---6---(42)-
B------------------------------3h5---------
e------------------------------------------x2

Baat ban jaaye to, aa baat chheeroon zaraa!
E------------------------------------
A------------------------------------
D------------------7-----------------
G-4------4677644-64------------------
B--55-355----------------------------
e------------------------------------


What do these symbols mean? Reading Tabs...
http://desichords.blogspot.com/2011/04/ruk-ja-o-dil-deewane-ddlj-tabs.html




Liked 'Ruk Ja O Dil Deewane (DDLJ) : Tabs' enough to share / save?

Ruk Ja O Dil Deewane (DDLJ) : Tabs

Comments: 0 comment(s)...have your say!

DesiChords Tip:

Tune your guitar before you start playing.^Top^


 


# Hosted for free on Blogspot.com / "Powered by Blogger." Get yours today at www.blogger.com
# The material collected and made available through these sites is exclusively intended for private study, research & to provide study material for musicians - in good faith. (Copyrights)
# This site uses cookies to offer you a better browsing experience. Kindly read the Terms of Service & Privacy policy and continue only if you agree.
# Copyrights, wherever applicable: IndianGuitarChords.Blogspot.Com (™ ©) / Arindam Sarkar © - MMVIII - MMXVI