Desi Chords:

0 comment(s) so far...have your say!

Taare Zameen Par (Shankar–Ehsaan–Loy) : Tabs


qrcode for - Taare Zameen Par (Shankar–Ehsaan–Loy) : TabsSong: Taare Zameen Par (Title Track)
Artist: Shankar Mahadevan, Shankar–Ehsaan–Loy, Dominique Cerejo, Vivienne Pocha
From: Taare Zameen Par (2007)


View:
{ Chords } - { Strum } - { Tabs } - { Lyrics } - { PDF } - { Videos }



Guitar Tabs:
Basic Intro / Inerlude:
|A-E-C#m-B-|A-E-G#m-A|
E------------------------------------
A------------------------------------
D------------------------------------
G------------------------------------
B------77------457-------------------
e-544-4--9755h7----------------------


Basic Verse:
Dekho inhein, yeh hain oons ki boodein...
E------------------------------------
A------------------------------------
D------------------------------------
G-9--------------------8-------------
B---979(10)9-7h97s5------------------
e------------------5s77-57s97--------

Pattoun ki goodh mein aasamaan se koondein.
E------------------------------------
A------------------------------------
D------------------------------------
G---------------------8--------------
B-979(10)9-7h97s5--------------------
e----------------5h777-57s97---------

Angdaai le phir, karwatt badal kar
E---------------------------------------------
A---------------------------------------------
D---------------------------------------------
G--------------------------------------89-----
B--------------------------7---7h97s5----7h97-
e-4-45s777-74-57s975-5p42-4-454------77-------

Kho na jaaye yeh, taare zameen par!
E----------------------------------------------------
A----------------------------------------------------
D----------------------------------------------------
G----------------------------------------------------
B-9(10)-------------------------------------(11)-----
e------79(10)v-9v-(12)(10)97s9-(10)s(12)(12)----7h97-


Basic Chorus: (repeat pattern)
Jaise aankhon ki dibbiyan mein nindiya...
E------------------------------------
A------------------------------------
D------------------------------------
G------------------------------------
B------------------------------------
e-777-79-7779-754-777-79-779-754-----

Aur sapne mein mil jaaye, farista-sa, koi.
E----------------------------------------
A----------------------------------------
D----------------------------------------
G----------------------------------------
B-------------------(10)(10)--999h(10)---
e-(10)(10)(10)-(10)9--------99--------77-


What do these symbols mean? Reading Tabs...
http://desichords.blogspot.com/2011/05/taare-zameen-par-shankarehsaanloy-tabs.html




Liked 'Taare Zameen Par (Shankar–Ehsaan–Loy) : Tabs' enough to share / save?

Taare Zameen Par (Shankar–Ehsaan–Loy) : Tabs

Comments: 0 comment(s)...have your say!

DesiChords Tip:

Tune your guitar before you start playing.^Top^


 


# Hosted for free on Blogspot.com / "Powered by Blogger." Get yours today at www.blogger.com
# The material collected and made available through these sites is exclusively intended for private study, research & to provide study material for musicians - in good faith. (Copyrights)
# This site uses cookies to offer you a better browsing experience. Kindly read the Terms of Service & Privacy policy and continue only if you agree.
# Copyrights, wherever applicable: IndianGuitarChords.Blogspot.Com (™ ©) / Arindam Sarkar © - MMVIII - MMXVI