Desi Chords:

0 comment(s) so far...have your say!

Tu Aashiqui Hai (Jhankaar Beats) : Tabs


qrcode for - Tu Aashiqui Hai (Jhankaar Beats) : TabsSong: Tu Aashiqui Hai
Artist: KK
From: Jhankaar Beats (2003)


View:
{ Chords } - { Strum } - { Tabs } - { Lyrics } - { PDF } - { Videos }



Guitar Tabs:
Basic Chorus:

Tu hai aasmaan mein; Teri yeh zameen hai.
E-------------------------------------
A-------------------------------------
D-9p77h9----(11)p77-9p77h9----(11)p77-
G-------7s97--------------7s97--------
B-------------------------------------
e-------------------------------------

Tu jo hai, toh sab-kuch hai - na koi kamee hai...
E------------------------------------
A-7h999------------------------------
D-------9----5-7---(11)p77-----------
G--------7764---4-7------------------
B----------------5-------------------
e------------------------------------

Tu hi dil hai; Tu hi jaan bhi hai....
E---------------------------------------------
A---------------------------------------------
D-----7------7-9p77--77s9---------------------
G-6h76-4-6h76------76----777-----6------------
B---------------------------7p55--5-h77-7s5s3-
e----------------------------------5----------

 zindagi hai.../ Tu mohabbat - Tu aashiqui hai! Tu aashiqui hai..
E--------|----------------------------
A--------|-----9-9------9-9-----------
D--------|------7-7h97v--7-7h97v------
G-7------|-764------------------------
B--77p55-|----7-----------------------
e--------|----------------------------


Basic Verse:
Pyar mein hi dhoondta hoon...
E------------------------------------
A------------------------------------
D-------7--------7-------------------
G----7-6-67---7-6-6-76---------------
B-787------787-----5-----------------
e------------------------------------x2


Tera chehra raushni hai!
E------------------------------------
A------------------------------------
D------------------------------------
G-6-----7----------------------------
B--5-77--77p55-----------------------
e---5--------------------------------

Tu mohabbat - Tu aashiqui hai! Tu aashiqui hai..
E----------------------------
A-----9-9------76-----------
D------7-7h97v---7-7h97v------
G-764------------------------
B----7-----------------------
e----------------------------

Basic Outro:

Tu aashiqui hai! Tu aashiqui raushni zindagi!
E------------------------------------
A------------------------------------
D---7--7-------7--7-------7--7-------
G-76-76-77---76-76-77---76-76-77-----
B---------55---------55---------55---
e------------------------------------ x2


What do these symbols mean? Reading Tabs...
http://desichords.blogspot.com/2011/06/tu-aashiqui-hai-jhankaar-beats-tabs.html




Liked 'Tu Aashiqui Hai (Jhankaar Beats) : Tabs' enough to share / save?

Tu Aashiqui Hai (Jhankaar Beats) : Tabs

Comments: 0 comment(s)...have your say!

DesiChords Tip:

Tune your guitar before you start playing.^Top^


 


# Hosted for free on Blogspot.com / "Powered by Blogger." Get yours today at www.blogger.com
# The material collected and made available through these sites is exclusively intended for private study, research & to provide study material for musicians - in good faith. (Copyrights)
# This site uses cookies to offer you a better browsing experience. Kindly read the Terms of Service & Privacy policy and continue only if you agree.
# Copyrights, wherever applicable: IndianGuitarChords.Blogspot.Com (™ ©) / Arindam Sarkar © - MMVIII - MMXVI