Desi Chords:

0 comment(s) so far...have your say!

Kar Kar Main Haara : Tabs


qrcode for - Kar Kar Main Haara : TabsSong: Kar Kar Main Haara
Artist: Kailash Kher, Kailasa
From: Chaandan Mein (2009)


View:

{Chords} - {Strum} - {Tabs} - {Lyrics} - {Analysis} - {Videos}


Guitar Tabs:

Yoon toh teri yaad mein bhi swaad hai tera...
E------------------------------------
A------------------------------------
D------------------------------------
G------------------------------------
B---------7-777-4777-7---------------
e-4444-477------------44-997--------- (repeats)

Satt yah asatt hai, main kya jaanoon?
E--------------------------------------
A--------------------------------------
D--------------------------------------
G--------------------------------------
B--------------------------------(10)--
e-(12)-(12)(12)-(12)-(12)(12)-9-9----7- X2

Jaise saansein tere bina hui guum!
E------------------------------------
A------------------------------------
D------------------------------------
G------------------------------------
B------------------------------------
e-777(10)(10)9-75554-7-5p4p2---------

Kar kar main haara, har jatan -
E------------------------------------
A------------------------------------
D------------------------------------
G---------9p7------------------------
B-57-7-555----57-7--755--------------
e---4-4---------4-74----------------- x2

Parda yeh jab hat jaayega...
E-----------------------------------------------------
A-----------------------------------------------------
D-----------------------------------------------------
G-----------------------------------------------------
B---------55------------------------------------------
e-55555-55--5-999997-(10)(10)-(12)(12)(12)(10)(10)975-

Kar kar main haara, har jatan -
E------------------------------------
A------------------------------------
D------------------------------------
G---------9p7------------------------
B-57-7-555----57-7--755--------------
e---4-4---------4-74-----------------


What do these symbols mean? Reading Tabs...
http://desichords.blogspot.com/2011/08/kar-kar-main-haara-tabs.html




Liked 'Kar Kar Main Haara : Tabs' enough to share / save?

Kar Kar Main Haara : Tabs

Comments: 0 comment(s)...have your say!

DesiChords Tip:

Tune your guitar before you start playing.^Top^


 


# Hosted for free on Blogspot.com / "Powered by Blogger." Get yours today at www.blogger.com
# The material collected and made available through these sites is exclusively intended for private study, research & to provide study material for musicians - in good faith. (Copyrights)
# This site uses cookies to offer you a better browsing experience. Kindly read the Terms of Service & Privacy policy and continue only if you agree.
# Copyrights, wherever applicable: IndianGuitarChords.Blogspot.Com (™ ©) / Arindam Sarkar © - MMVIII - MMXVI