Desi Chords:

0 comment(s) so far...have your say!

O Majhi Re (Kishore : Khushboo) : Tabs


qrcode for - O Majhi Re (Kishore : Khushboo) : TabsSong: O Majhi Re
Artist: Kishore Kumar, R. D. Burman
From: Khushboo (1975)


View:{Chords} - {Strum} - {Tabs} - {Lyrics} - {Analysis} - {Videos}


Guitar Tabs:
Basic Chorus Line:

O maajhi re! Apana kinaara, nadiya ki dhaara hai.
E------------------------------------
A-----------66-6---------------------
D-5--------5----44-4-4---------------
G--33-5--53-----------4--------------
B------------------------------------
e------------------------------------

Basic Verse:

Saahilon-pe behane-waale, kabhi suna to hoga kahin? /
Kaagazon ki kashtiyonka kahin kinaara hota nahin.

E------------------------------------
A------------------------------------
D------------------------------------
G-5--------5--------55--------7------
B--53h5-3p1-53h5-3p1--53h5-3p1-55----
e------------------------------------ x2

O maajhi re! Maajhi re!
E------------------------------------
A------------------------------------
D--------8s(10)----------------------
G-------7----------------------------
B-555s6------------------------------
e------------------------------------

Koi kinaara, jo kinaare se mile woh, apana kinaara hai.
E------------------------------------
A---------------------------8--------
D----------------------------77h8-8--
G----------55----555h7-7p53--------5-
B-553-33h55--3h55--------------------
e------------------------------------


What do these symbols mean? Reading Tabs...
http://desichords.blogspot.com/2011/08/o-majhi-re-kishore-khushboo-tabs.html




Liked 'O Majhi Re (Kishore : Khushboo) : Tabs' enough to share / save?

O Majhi Re (Kishore : Khushboo) : Tabs

Comments: 0 comment(s)...have your say!

DesiChords Tip:

Tune your guitar before you start playing.^Top^


 


# Hosted for free on Blogspot.com / "Powered by Blogger." Get yours today at www.blogger.com
# The material collected and made available through these sites is exclusively intended for private study, research & to provide study material for musicians - in good faith. (Copyrights)
# This site uses cookies to offer you a better browsing experience. Kindly read the Terms of Service & Privacy policy and continue only if you agree.
# Copyrights, wherever applicable: IndianGuitarChords.Blogspot.Com (™ ©) / Arindam Sarkar © - MMVIII - MMXVI