Desi Chords:

0 comment(s) so far...have your say!

Raah Pe Rahte Hain (Kishore) : Tabs


qrcode for - Raah Pe Rahte Hain (Kishore) : TabsSong: Raah Pe Rahte Hain
Artist: R.D. Burman , Kishore Kumar
From: Namkeen (1977)


View:{Chords} - {Strum} - {Tabs} - {Lyrics} - {Analysis} - {Videos}


Guitar Tabs:
Basic Chorus:

Raah pe rahate hain, yaadon pe basar karate hain - /
Khush raho aihley watan, hum to safar karate hain.
E------------------------v---------------------
A------------5------------------------53-5----
D-5-----------5-----------5------54-44-----45-
G--24-4p22p0---24-422p00----5-242-------------
B----3-----------3---------3------------------
e---------------------------------------------

Basic Vesre:

Jal gaye jo, dhoop mein to, saaya ho gaye...
E------------------------------------
A------------------------------------
D------------------------------------
G-4344-----4-45-525------------------
B-----131-1----5---------------------
e------------------------------------x2

Aasamaan ka koyi kona, thoda so gaye.
E------------------------------------
A------------------------------------
D-------------5----5-----------------
G-------42222--2-54------------------
B-1h3333-----------------------------
e------------------------------------

Joh guzar jaati hai, bas, (ho,) uspe guzar karate hain!
E------------------------------------
A------------53-5--------------------
D-5------54-44-----45----------------
G----5-242---------------------------
B---3--------------------------------
e------------------------------------


What do these symbols mean? Reading Tabs...
http://desichords.blogspot.com/2011/08/raah-pe-rahte-hain-kishore-tabs.html




Liked 'Raah Pe Rahte Hain (Kishore) : Tabs' enough to share / save?

Raah Pe Rahte Hain (Kishore) : Tabs

Comments: 0 comment(s)...have your say!

DesiChords Tip:

Tune your guitar before you start playing.^Top^


 


# Hosted for free on Blogspot.com / "Powered by Blogger." Get yours today at www.blogger.com
# The material collected and made available through these sites is exclusively intended for private study, research & to provide study material for musicians - in good faith. (Copyrights)
# This site uses cookies to offer you a better browsing experience. Kindly read the Terms of Service & Privacy policy and continue only if you agree.
# Copyrights, wherever applicable: IndianGuitarChords.Blogspot.Com (™ ©) / Arindam Sarkar © - MMVIII - MMXVI