Desi Chords:

0 comment(s) so far...have your say!

Raymond Suitings Advertisement Tune : Guitar Tabs, Chords, Notes


qrcode for - Raymond Suitings Advertisement Tune : Guitar Tabs, Chords, NotesSong: Raymond Suitings Advertisement Tune (New) (Excerpt from Traumerei)
Artist: Robert Schumann
From: Traumerei of Kinderszenen / Opus 15 (1838)


View:
{Chords and Tabs} - {Strum} - {Analysis} - {Videos}



Guitar Tabs with Chords:
F                 F
E------------------------------------
A------------------------------------
D--------7----------------(10)-------
G-3s5----5----------------(10)-------
B----6---6---56-----------(10)-------
e--------5-----5-(12)s(13)(13)-------

   F                     Bb         C
E-------------------------------------------------------
A----------------------------------(10)-----------------
D-(10)-------------------8---------(10)-----------------
G-(10)-------------------7----------9-------------------
B-(10)-------------------6----------8--(10)-----8---6p5-
e-(13)(12)-8(10)(12)(13)-68(10)(12)--------6(10)--------

         F                 F
E------------------------------------
A------------------------------------
D--------7----------------(10)-------
G-3s5----5----------------(10)-------
B----6---6---56-----------(10)-------
e--------5-----5-(12)s(13)(13)-------

  F         Bb    Bb       F
E------------------------------------
A------------------------------------
D--------------------------7---------
G----------------(10)------5---------
B-(10)-----(10)--(11)(10)--6---------
e-(13)(12)-(10)8-----------7---------


Original Scale: F major (same as original)


What do these symbols mean? Reading Tabs...
http://desichords.blogspot.com/2011/08/raymond-suitings-advertisement-tune_28.html




Liked 'Raymond Suitings Advertisement Tune : Guitar Tabs, Chords, Notes' enough to share / save?

Raymond Suitings Advertisement Tune : Guitar Tabs, Chords, Notes

Comments: 0 comment(s)...have your say!

DesiChords Tip:

Tune your guitar before you start playing.^Top^


 


# Hosted for free on Blogspot.com / "Powered by Blogger." Get yours today at www.blogger.com
# The material collected and made available through these sites is exclusively intended for private study, research & to provide study material for musicians - in good faith. (Copyrights)
# This site uses cookies to offer you a better browsing experience. Kindly read the Terms of Service & Privacy policy and continue only if you agree.
# Copyrights, wherever applicable: IndianGuitarChords.Blogspot.Com (™ ©) / Arindam Sarkar © - MMVIII - MMXVI