Desi Chords:

0 comment(s) so far...have your say!

Titan Watches Advertisement Tune : Guitar Tabs, Chords, Notes


qrcode for - Titan Watches Advertisement Tune : Guitar Tabs, Chords, NotesSong: (Titan Watches Advertisement Tune) Excerpt from the Allegro of Symphony No. 25
Artist: Wolfgang Amadeus Mozart
From: Symphony No. 25 (1773)


View:
{Chords & Tabs} - {Strum} - {Analysis} - {Videos}



Guitar Tabs with Chords:
G     D      G      D  
E------------------------------------
A------------------------------------
D------------------------------------
G------------------------------------
B-8-78(10)-8(10)--(10)------(10)-----
e---------------7----7(10)87---------

  G     D      G      D
E------------------------------------
A------------------------------------
D------------------------------------
G------------------------------------
B-8-78(10)-8(10)--(10)------(10)-----
e---------------7----7(10)87---------

    G
E------------------------------------
A------------------------------------
D------------------------------------
G------------------------------------
B-8----------------------------------
e--(15)(15)(14)(14)(12)(12)(10)------

  D
E------------------------------------
A------------------------------------
D------------------------------------
G------------------------------------
B-7----------------------------------
e--(14)(14)(12)(12)(10)(10)8---------

   C              G
E------------------------------------
A------------------------------------
D------------------------------------
G-9----------------------------------
B-------------(10)-(10)-878----------
e--8888-87(10)----7------------------

     D       G       D         G
E------------------------------------
A------------------------------------
D------------------------------------
G------------------------------------
B-78(10)-8(10)-(10)-------(10)-8-----
e------------7----7-(10)87-----------


Double Notes Version:

E------------------------------------
A-555--5------------555--5-----------
D-545-454-545--554--545-454-545--554-
G-----2-2-424-5542------2-2-424-5542-
B-------------3----------------3-----
e------------------------------------

E------------------------------------
A-5--------5--------5-----------555--
D-5--------4--------455-555-4-54545--
G--------4--------4--55-55442-42-----
B--3333333--3333113--------3---------
e--332200---220000-------------------

E------------------------------------
A-55--5----------5-------------------
D-454-545-45--5545-------------------
G---2--24-24-4542--------------------
B------------3-----------------------
e------------------------------------


Original Scale: G major (same as original)


What do these symbols mean? Reading Tabs...
http://desichords.blogspot.com/2011/08/titan-watches-advertisement-tune-guitar.html




Liked 'Titan Watches Advertisement Tune : Guitar Tabs, Chords, Notes' enough to share / save?

Titan Watches Advertisement Tune : Guitar Tabs, Chords, Notes

Comments: 0 comment(s)...have your say!

DesiChords Tip:

Tune your guitar before you start playing.^Top^


 


# Hosted for free on Blogspot.com / "Powered by Blogger." Get yours today at www.blogger.com
# The material collected and made available through these sites is exclusively intended for private study, research & to provide study material for musicians - in good faith. (Copyrights)
# This site uses cookies to offer you a better browsing experience. Kindly read the Terms of Service & Privacy policy and continue only if you agree.
# Copyrights, wherever applicable: IndianGuitarChords.Blogspot.Com (™ ©) / Arindam Sarkar © - MMVIII - MMXVI