Desi Chords:

0 comment(s) so far...have your say!

Woh Lamhe Woh Baatein : (Atif : Zeher) : Tabs, Notes


qrcode for - Woh Lamhe Woh Baatein : (Atif : Zeher) : Tabs, NotesSong: Woh Lamhe Woh Baatein
Artist: Atif Aslam
From: Zeher (2005)


View: {Chords} - {Strum & Analysis} - {Tabs} - {Plain Lyrics} - {Song & Videos}


Guitar Tabs:
Basic Chorus:

Woh lamhe, woh baatein - koi na jaane /
Thi kaisi raatein - (hoo) barsaatein /
E-------------------------------------
A-------------------------------------
D-----------------------------------6-
G---6----6---6--43----6-643-34-3h4-3--
B-54-4-54-4-4-54---554-4--------------
e-------------------------------------

Woh bheegi bheegi yaadein! / Woh bheegi bheegi yaadein!
E------------------------------------
A------------------------------------
D-66-----6s8-66-----6s8--------------
G---346-3------346-3-----------------
B------------------------------------
e------------------------------------


Basic Verse:

Na main jaanu, naa tu jaane /
Kaisa hai yeh mausam - koi na jaane. /
Kaanhi se yeh fizaa aayi /
Ghamon ki dhoop sang laayi,
E------------------------------------------
A------------------------------------------
D-46---------4446--------------------------
G---43-6--43-----43-6--43-44434---44434----
B-----4-54---------4-54--------754-----754-
e------------------------------------------

Khafaa hogaye hum; judaa hogaye hum.
E------------------------------------
A------------------------------------
D------------------------------------
G---6--46---6--46-6------------------
B-44-54---44-54--4-------------------
e------------------------------------


Original Scale: G# minor


Learn What do these symbols mean: Reading Tabs...
http://desichords.blogspot.com/2011/08/woh-lamhe-woh-baatein-atif-zeher-tabs.html




Liked 'Woh Lamhe Woh Baatein : (Atif : Zeher) : Tabs, Notes' enough to share / save?

Woh Lamhe Woh Baatein : (Atif : Zeher) : Tabs, Notes

Comments: 0 comment(s)...have your say!

DesiChords Tip:

Tune your guitar before you start playing.^Top^


 


# Hosted for free on Blogspot.com / "Powered by Blogger." Get yours today at www.blogger.com
# The material collected and made available through these sites is exclusively intended for private study, research & to provide study material for musicians - in good faith. (Copyrights)
# This site uses cookies to offer you a better browsing experience. Kindly read the Terms of Service & Privacy policy and continue only if you agree.
# Copyrights, wherever applicable: IndianGuitarChords.Blogspot.Com (™ ©) / Arindam Sarkar © - MMVIII - MMXVI