Desi Chords:

0 comment(s) so far...have your say!

Yeh Raaten Yeh Mausam (Pankaj Mullick) : Tabs


qrcode for - Yeh Raaten Yeh Mausam (Pankaj Mullick) : TabsSong: Yeh Raaten Yeh Mausam
Artist: Pankaj Mullick
From: The Greatest Hits of Pankaj Mullick (1962) [On 33&1/3 rpm vinyl]


View: {Chords} - {Strum} - {Tabs} - {Lyrics} - {Analysis} - {Videos}

Guitar Tabs:
Basic Verse:

Yeh raatein...Yeh raatein, yeh mausam yeh, hasna hasana,
E-8-8----|-8--------------------------
A--5-----|---------------8------------
D----5s7-|--77-77h87h8-57-77s8--------
G--------|----------------------------
B--------|----------------------------
e--------|----------------------------


Mujhe, bhul jana - inhe na bhulana, bhulana, bhulana!
E-8----------------------------------
A--5-87--3h5-5p3----------------8----
D----------------777-77h87h8-555-77--
G------------------------------------
B------------------------------------
e------------------------------------
What do these symbols mean? Reading Tabs...
http://desichords.blogspot.com/2011/08/yeh-raaten-yeh-mausam-pankaj-mullick.html




Liked 'Yeh Raaten Yeh Mausam (Pankaj Mullick) : Tabs' enough to share / save?

Yeh Raaten Yeh Mausam (Pankaj Mullick) : Tabs

Comments: 0 comment(s)...have your say!

DesiChords Tip:

Tune your guitar before you start playing.^Top^


 


# Hosted for free on Blogspot.com / "Powered by Blogger." Get yours today at www.blogger.com
# The material collected and made available through these sites is exclusively intended for private study, research & to provide study material for musicians - in good faith. (Copyrights)
# This site uses cookies to offer you a better browsing experience. Kindly read the Terms of Service & Privacy policy and continue only if you agree.
# Copyrights, wherever applicable: IndianGuitarChords.Blogspot.Com (™ ©) / Arindam Sarkar © - MMVIII - MMXVI