Desi Chords:

0 comment(s) so far...have your say!

Uthe Sabke Kadam (Baton Baton Mein) : Tabs, Notes


qrcode for - Uthe Sabke Kadam (Baton Baton Mein) : Tabs, NotesSong: Uthe Sabke Kadam
Artist: Lata Mangeshkar, Amit Kumar, Pearl Padamsee
From: Baton Baton Mein (1979)


View:
{Chords} - {Strum} - {Tabs} - {Lyrics} - {Analysis} - {Videos}



Guitar Tabs:
Basic Chorus:

Uthe sabke kadam, dekho, ram-pam-pam, / Aji aise geet gaya karo!
Kabhi khushi kabhi ghum, tara-ram-pam-pam, / Hanso aur hansaaya karo!

E-----------------------------------------------
A-----------------------------------------------
D-----------------------------------------------
G-----------------------------------4-----------
B-57--5-57--5-57---------45774-45774--------775-
e---44----44----444455447-------------777744----

Basic Interlude:
E------------------------------------
A------------------------------------
D------------------------------------
G------------------------------------
B------------------7975--------------
e-7(12)777(12)-7975------------------

Basic Verse:

Woh pyaare din aur woh pyaari raatein -
Yaad humein hain, woh mulakaatein!

E----------------------------------------------
A----------------------------------------------
D----------------------------------------------
G----------------------------------------------
B-----------------------------------------(10)-
e-77679-77679-(12)(12)(11)(11)9977-7h9-997-----

Nahi koi ghum, mujhe, nahi hai gila,
Zindagiki raaha mein, mila hai jabse tu mujhe! Re,

E----------------------------------------------------------------
A----------------------------------------------------------------
D----------------------------------------------------------------
G-------------------------------------------------------------9--
B-------------------------------------------------(10)(10)9977-7-
e-9997-9h(11)99-9997-9h(11)99-(12)(12)(11)(11)9977---------------


Humdum, shabnam hum hain, aur tum shola ban jaaya karo!
Kabhi khushi kabhi ghum, tara-ram-pam-pam,
Hanso aur hansaaya karo!

E-----------------------------------------------
A-----------------------------------------------
D-----------------------------------------------
G------6-----6----------------4-----4-----------
B-57--5-57--5-57---------45774-45774--------775-
e---44----44----444455447-------------777744----


What do these symbols mean? Reading Tabs...
http://desichords.blogspot.com/2011/09/uthe-sabke-kadam-baton-baton-mein-tabs.html




Liked 'Uthe Sabke Kadam (Baton Baton Mein) : Tabs, Notes' enough to share / save?

Uthe Sabke Kadam (Baton Baton Mein) : Tabs, Notes

Comments: 0 comment(s)...have your say!

DesiChords Tip:

Tune your guitar before you start playing.^Top^


 


# Hosted for free on Blogspot.com / "Powered by Blogger." Get yours today at www.blogger.com
# The material collected and made available through these sites is exclusively intended for private study, research & to provide study material for musicians - in good faith. (Copyrights)
# This site uses cookies to offer you a better browsing experience. Kindly read the Terms of Service & Privacy policy and continue only if you agree.
# Copyrights, wherever applicable: IndianGuitarChords.Blogspot.Com (™ ©) / Arindam Sarkar © - MMVIII - MMXVI