Desi Chords:

0 comment(s) so far...have your say!

Jeena Yahan Marna Yahan (Mera Naam Joker) : Tabs, Notes


qrcode for - Jeena Yahan Marna Yahan (Mera Naam Joker) : Tabs, NotesSong: Jeena Yahan Marna Yahan
Artist: Mukesh, Shankar Jaikishan
From: Mera Naam Joker (1970)


View:
{Chords} - {Strum} - {Tabs} - {Lyrics} - {Analysis} - {Videos}



Guitar Tabs:
Jeena yahan marna yahan / Iske siwa jaana kahan?
E------------------------------------
A-3--------3-------------------------
D--3----23--23---2-3-----------------
G---01-0--0---0-1-0------------------
B------------------------------------
e------------------------------------ x2

Jee chahe jab humko awaaz do / Hum hain wahin, hum they jahan.
E------------------------------------
A------------------------------------
D---------------------2-3------------
G---3-------3----031-0-0-------------
B-12-11-1-12-1--1--------------------
e------------------------------------

Apne yahin dono jahan / Iske siwa jana kahan?
E------------------------------------
A-3--------3-------------------------
D--3----23--23---2-3-----------------
G---01-0--0---0-1-0------------------
B------------------------------------
e------------------------------------


Yeh mera geet, jeevan sangeet / Kal bhi koi dohraayega.
Yeh mera geet, jeevan sangeet / Kal bhi koi dohraayega.
Jag ko hasaane behroopiya / Roop badal phir aayega!
E------------------------------------
A------------------------------------
D------------------------------------
G-2202-3323-6656-5315----------------
B------------------------------------
e------------------------------------ x3

Swarg yahin, Nark yahan / Iske siwa jaana kahan?
E------------------------------------
A-3--------3-------------------------
D--3----23--23---2-3-----------------
G---01-0--0---0-1-0------------------
B------------------------------------
e------------------------------------

Jee chahe jab humko awaaz do / Hum hain wahin, hum they jahan.
E------------------------------------
A------------------------------------
D---------------------2-3------------
G---3-------3----031-0-0-------------
B-12-11-1-12-1--1--------------------
e------------------------------------


What do these symbols mean? Reading Tabs...
http://desichords.blogspot.com/2012/02/jeena-yahan-marna-yahan-mera-naam-joker.html




Liked 'Jeena Yahan Marna Yahan (Mera Naam Joker) : Tabs, Notes' enough to share / save?

Jeena Yahan Marna Yahan (Mera Naam Joker) : Tabs, Notes

Comments: 0 comment(s)...have your say!

DesiChords Tip:

Tune your guitar before you start playing.^Top^


 


# Hosted for free on Blogspot.com / "Powered by Blogger." Get yours today at www.blogger.com
# The material collected and made available through these sites is exclusively intended for private study, research & to provide study material for musicians - in good faith. (Copyrights)
# This site uses cookies to offer you a better browsing experience. Kindly read the Terms of Service & Privacy policy and continue only if you agree.
# Copyrights, wherever applicable: IndianGuitarChords.Blogspot.Com (™ ©) / Arindam Sarkar © - MMVIII - MMXVI