Desi Chords:

0 comment(s) so far...have your say!

Ya Ali, Madad Ali (Gangster) : Tabs, Notes


qrcode for - Ya Ali, Madad Ali (Gangster)  : Tabs, NotesSong: Ya Ali
Artist: Zubeen Garg
From: Gangster (2006)


View:
{Chords} - {Strum} - {Tabs} - {Lyrics} - {Analysis} - {Videos}



Guitar Tabs:
Ya Ali! Reham Ali! / Ya Ali, yaar pe qurbaan hai sabhi.
Ya Ali! Madad Ali! / Ya Ali, yeh meri jaan, yeh zindagi
E------------------------------------
A------------------------------------
D----------------9s7-------------79--
G-45-----------75---7h95p4-444h54----
B---4h5-55p3-75----------------------
e------------------------------------ x2

Ishq pe, haan, mita doon, luta doon, / Main apani khudi!
Yaar pe, haan, luta doon, mita doon, / Main yeh hasti!
E------------------------------------
A------------------------------------
D----------------75-5-7h9-5h7-4------
G-45s99-77h875-55--------------------
B------------------------------------
e------------------------------------ x2

Ya Ali! Madad Ali! / Ya Ali, yeh meri jaan, yeh zindagi
E------------------------------------
A------------------------------------
D----------------9s7-------------79--
G-45-----------75---7h95p4-444h54----
B---4h5-55p3-75----------------------
e------------------------------------


Mujhe kuchh pal de qurbat ke, / Fakir hum teri chahat ke.
Rahein bechain dil kab tak, / Milen kuchh pal toh raahat ke?
E------------------------------------
A--------7-7-------------------------
D-------5---45s7-777-----------------
G-44p254------------4h55-7s9-5s7-4---
B------------------------------------
e------------------------------------ x2

Chahat pe, ishq pe, haan, mita doon, luta doon, / Main apani khudi!
Yaar pe, haan, luta doon, mita doon / Main yeh hasti!
E------------------------------------
A------------------------------------
D------------------------------------
G-459-97------------75-57s9-5s7-4----
B-------5s77-8875-55-----------------
e------------------------------------ x2


What do these symbols mean? Reading Tabs...
http://desichords.blogspot.com/2012/03/ya-ali-madad-ali-gangster-tabs-notes.html




Liked 'Ya Ali, Madad Ali (Gangster) : Tabs, Notes' enough to share / save?

Ya Ali, Madad Ali (Gangster) : Tabs, Notes

Comments: 0 comment(s)...have your say!

DesiChords Tip:

Tune your guitar before you start playing.^Top^


 


# Hosted for free on Blogspot.com / "Powered by Blogger." Get yours today at www.blogger.com
# The material collected and made available through these sites is exclusively intended for private study, research & to provide study material for musicians - in good faith. (Copyrights)
# This site uses cookies to offer you a better browsing experience. Kindly read the Terms of Service & Privacy policy and continue only if you agree.
# Copyrights, wherever applicable: IndianGuitarChords.Blogspot.Com (™ ©) / Arindam Sarkar © - MMVIII - MMXVI