Desi Chords:

0 comment(s) so far...have your say!

Are Re Are Are Yeh Kya Hua : Tabs, Notes


qrcode for - Are Re Are Are Yeh Kya Hua : Tabs, NotesSong: Are Re Are
Artist: Lata Mangeshkar, Udit Narayan
From: Dil To Pagal Hai (1997)


View:
{Chords} - {Strum} - {Tabs} - {Lyrics} - {Analysis} - {Videos}



Guitar Tabs:
Are re are yeh kya hua - maine na ye jaana!
E------------------------------------
A------------------------------------
D------------------------------------
G-9--99--------9--9------------------
B--78---(10)87--78-------------------
e------7-----------87----------------

Are re are ban jaaye na, kahin koi afsaana!
E------------------------------------
A------------------------------------
D------------------------------------
G-9--99------------------9-----------
B--78---(10)87-8(10)-7-87------------
e------7------------7----------------


Haath mera thaam lo, saath jab tak ho.
Baat kuchh hoti rahe, baat jab tak ho.
E------------------------------------
A------------------------------------
D------------------------------------
G-9-------------9--------------------
B--8-(10)-(10)8--8-----(10)----------
e---7----7--------7(10)-------------- x2

Saamne baithe raho tum, raat jab tak ho.
E---------------------------------------------------
A---------------------------------------------------
D---------------------------------------------------
G---------------------------------------------------
B--------------------(10)(10)p8-8-8-(10)87-(10)875--
e-777(12)-(10)h(12)-7------------7-7----------------


What do these symbols mean? Reading Tabs...
http://desichords.blogspot.com/2012/05/are-re-are-are-yeh-kya-hua-tabs-notes.html




Liked 'Are Re Are Are Yeh Kya Hua : Tabs, Notes' enough to share / save?

Are Re Are Are Yeh Kya Hua : Tabs, Notes

Comments: 0 comment(s)...have your say!

DesiChords Tip:

Tune your guitar before you start playing.^Top^


 


# Hosted for free on Blogspot.com / "Powered by Blogger." Get yours today at www.blogger.com
# The material collected and made available through these sites is exclusively intended for private study, research & to provide study material for musicians - in good faith. (Copyrights)
# This site uses cookies to offer you a better browsing experience. Kindly read the Terms of Service & Privacy policy and continue only if you agree.
# Copyrights, wherever applicable: IndianGuitarChords.Blogspot.Com (™ ©) / Arindam Sarkar © - MMVIII - MMXVI