Desi Chords:

0 comment(s) so far...have your say!

Duniya Paagal Hai (Shagird) : Tabs, Notes


qrcode for - Duniya Paagal Hai (Shagird) : Tabs, NotesSong: Duniya Paagal Hai, Ya Phir Main Deewana
Artist: Mohammed Rafi
From: Shagird (1967)


View:
{Chords} - {Strum} - {Tabs} - {Lyrics} - {Analysis} - {Videos}



Guitar Tabs:
Duniya pagal hai, ya phir main deewana! x2
E------------------------------------
A-7-------7--------------------------
D-----7------6-467-------------------
G--6-4-46--44------------------------
B------------------------------------
e------------------------------------ x2

Mujhko chahti hai zulfon mein uljhana. 
E------------------------------------
A------------------------------------
D--------------7---------------------
G-----6----6--6-64-------------------
B-55-5-75-5-75-----------------------
e------------------------------------

Duniya pagal hai, ya phir main deewana!
E------------------------------------
A-7-------7--------------------------
D-----7------6-467-------------------
G--6-4-46--44------------------------
B------------------------------------
e------------------------------------


{Azadi hai to tum ho shehzade mere pyaaron;
Shaadi hui to samjho bhikari ban gaye yaaron!} x2
E----------------------------------------
A----------------------------------------
D---7-7--77--77-7s9--667-----------------
G-64---64--64--4--------44-4467----------
B------------------------------5-555-3h5-
e----------------------------------------

Jo hai akela, woh albela -
Jo hai akela, woh albela - uska zamaana!
E------------------------------------
A------------------------------------
D------------------------------------
G------------------------------------
B-3h555-5-3h555-5-3h555-5------------
e------------------------------------


What do these symbols mean? Reading Tabs...
http://desichords.blogspot.com/2012/05/duniya-paagal-hai-shagird-tabs-notes.html




Liked 'Duniya Paagal Hai (Shagird) : Tabs, Notes' enough to share / save?

Duniya Paagal Hai (Shagird) : Tabs, Notes

Comments: 0 comment(s)...have your say!

DesiChords Tip:

Tune your guitar before you start playing.^Top^


 


# Hosted for free on Blogspot.com / "Powered by Blogger." Get yours today at www.blogger.com
# The material collected and made available through these sites is exclusively intended for private study, research & to provide study material for musicians - in good faith. (Copyrights)
# This site uses cookies to offer you a better browsing experience. Kindly read the Terms of Service & Privacy policy and continue only if you agree.
# Copyrights, wherever applicable: IndianGuitarChords.Blogspot.Com (™ ©) / Arindam Sarkar © - MMVIII - MMXVI