Desi Chords:

0 comment(s) so far...have your say!

Tere Bina Zindagi Se Koi (Aandhi) : Tabs, Notes


qrcode for - Tere Bina Zindagi Se Koi (Aandhi) : Tabs, NotesSong: Tere Bina Zindagi Se
Artist: Kishore Kumar, Lata Mangeshkar, Rahul Dev Burman
From: Aandhi (1975)


View:
{Chords} - {Strum} - {Tabs} - {Lyrics} - {Analysis} - {Videos}



Guitar Tabs:
Basic Chorus:

Tere bina zindagi se koi shikwa to nahin,
E------------------------------------
A------------------------------------
D--------------7-----------7---------
G-67----7-7-6-6-----6---7-6-6664-----
B---79-7-7-------555-5-5-------------
e------------------------------------

Shikwa nahin, shikwa nahin, shikwa nahin...
E------------------------------------
A------------------------------------
D------------------------------------
G-467------74-776--------------------
B----5-3s5---------------------------
e------------------------------------


Basic Verse:

Kaash aisa ho, tere kadmon se chunke manzil chalein -
E------------------------------------
A------------------------------------
D------------------------------------
G-66556-66446-6633--3----------------
B-----------------22-----------------
e------------------------------------

Aur kahin, door kahin.
E------------------------------------
A------------------------------------
D------------------------------------
G-3----4-----------------------------
B--2-4--42---------------------------
e---2--------------------------------

Tum 'gar saath ho, manzilon ki kami to nahin.
E------------------------------------
A------------------------------------
D---------4-4--4---------------------
G--444-333---13-131------------------
B-4---2------------------------------
e------------------------------------


What do these symbols mean? Reading Tabs...
http://desichords.blogspot.com/2012/06/tere-bina-zindagi-se-koi-aandhi-tabs.html




Liked 'Tere Bina Zindagi Se Koi (Aandhi) : Tabs, Notes' enough to share / save?

Tere Bina Zindagi Se Koi (Aandhi) : Tabs, Notes

Comments: 0 comment(s)...have your say!

DesiChords Tip:

Tune your guitar before you start playing.^Top^


 


# Hosted for free on Blogspot.com / "Powered by Blogger." Get yours today at www.blogger.com
# The material collected and made available through these sites is exclusively intended for private study, research & to provide study material for musicians - in good faith. (Copyrights)
# This site uses cookies to offer you a better browsing experience. Kindly read the Terms of Service & Privacy policy and continue only if you agree.
# Copyrights, wherever applicable: IndianGuitarChords.Blogspot.Com (™ ©) / Arindam Sarkar © - MMVIII - MMXVI