Desi Chords:

0 comment(s) so far...have your say!

Yaad Aa Raha Hai Tera Pyar (Disco Dancer) : Tabs, Notes


qrcode for - Yaad Aa Raha Hai Tera Pyar (Disco Dancer) : Tabs, NotesSong: Yaad Aa Raha Hai
Artist: Bappi Lahiri
From: Disco Dancer (1982)


View:
{Chords} - {Strum} - {Tabs} - {Lyrics} - {Analysis} - {Videos}



Guitar Tabs:
Basic Chorus:

Yaad aa raha hai tera pyaar.
E------------------------------------
A------------------------------------
D-4---4---------------2--------------
G-4----4-------424----2-222h4--------
B--2h4--4-542-2---242-2--------------
e------------------------------------

Kahan hum, kahan tum? / Huye tum kahan ghum?
E------------------------------------
A------------------------------------
D------------------------------------
G-24-424-24-424----------------------
B---2------2-------------------------
e------------------------------------

Aabhi ja - abhi ja, ek baar! / Ho o o o o o o...
E------------------------------------
A------------------------------------
D-------4-424------------------------
G-24--42-------2--4-4----------------
B---2----------2-2---2---------------
e------------------------------------


Basic Verse:

Yaaron, main to yahan jeeta raha
saare ghum dil ke bhoolake -
Deke tumhe saari khushi!
E------------------------------------------------------
A----2-------------------------------------------------
D-4---4-------------------------------------------9----
G-4----4---------------------4---------6-----------8---
B-4-----4-------------7-7s95--5-57------5-----------7--
e---2-----454545-45454---------4--4575---5-9755h7----7-

Maine - maine yahan kuch bhi to
Paya nahi, sab kuch paake -
Mujhko mili kya zindagi?
E------------------------------------------------------
A----2-------------------------------------------9-----
D-----4-------------------------------------------9----
G-4----4---------------------4---------6-----------8---
B-4-----4-------------7-7s95--5-57------5-----------7--
e---2-----454545-45454---------4--4575---5-9755h7----7-


What do these symbols mean? Reading Tabs...
http://desichords.blogspot.com/2012/06/yaad-aa-raha-hai-tera-pyar-disco-dancer.html




Liked 'Yaad Aa Raha Hai Tera Pyar (Disco Dancer) : Tabs, Notes' enough to share / save?

Yaad Aa Raha Hai Tera Pyar (Disco Dancer) : Tabs, Notes

Comments: 0 comment(s)...have your say!

DesiChords Tip:

Tune your guitar before you start playing.^Top^


 


# Hosted for free on Blogspot.com / "Powered by Blogger." Get yours today at www.blogger.com
# The material collected and made available through these sites is exclusively intended for private study, research & to provide study material for musicians - in good faith. (Copyrights)
# This site uses cookies to offer you a better browsing experience. Kindly read the Terms of Service & Privacy policy and continue only if you agree.
# Copyrights, wherever applicable: IndianGuitarChords.Blogspot.Com (™ ©) / Arindam Sarkar © - MMVIII - MMXVI