Desi Chords:

0 comment(s) so far...have your say!

Yeh Kahan Aa Gaye Hum (Silsila) : Tabs, Notes


qrcode for - Yeh Kahan Aa Gaye Hum (Silsila) : Tabs, NotesSong: Yeh Kahan Aa Gaye Hum
Artist: Lata Mangeshkar, Amitabh Bachchan
From: Silsila (1981)


View:
{Chords} - {Strum} - {Tabs} - {Lyrics} - {Analysis} - {Videos}



Guitar Tabs:
Yeh kahan aa gaye hum, / Yoonhi saath-saath chalte?
E---------------------------------------
A---------------------------------------
D---------------------------------------
G-------8---------------------------8---
B-8------8--------------------64-88--8--
e--6(11)--(11)-(11)(13)98-4446--------8-

Teri baahon mein hai, jaanam,/ Mere jism-o-jaan pighalte!
E------------------------------------
A------------------------------------
D------------------------------------
G-----------6-------66----------------
B-9866-4h66-6-66-986--48-644----------
e------------------------------------


Tu badan hai main hoon chhaaya; / Tu na ho to main kahan hoon?
E------------------------------------
A------------------------------------
D------------------------------------
G-8------------8------8--------------
B-8------------9----9-9--------------
e-666-668-6h88-8-886--8-6h8666-------


Mujhe pyaar karne waale, / Tu jahan hai main wahan hoon!
E------------------------------------
A------------------------------------
D------------------------------------
G-8---------------8------8-----------
B-8---------------9----9-9-----------
e-666-68(11)-6h88-8-886--8-6h8666----


Hamein milna hi tha, humdam, / Isi raah bhi nikalte!
E------------------------------------
A----------------------4-------------
D------6---------------6-------------
G------6-------------6-668-----888---
B-9866-6-4h66-4h64h64-----6h8-6------
e------------------------------------


What do these symbols mean? Reading Tabs...
http://desichords.blogspot.com/2012/06/yeh-kahan-aa-gaye-hum-silsila-tabs.html




Liked 'Yeh Kahan Aa Gaye Hum (Silsila) : Tabs, Notes' enough to share / save?

Yeh Kahan Aa Gaye Hum (Silsila) : Tabs, Notes

Comments: 0 comment(s)...have your say!

DesiChords Tip:

Tune your guitar before you start playing.^Top^


 


# Hosted for free on Blogspot.com / "Powered by Blogger." Get yours today at www.blogger.com
# The material collected and made available through these sites is exclusively intended for private study, research & to provide study material for musicians - in good faith. (Copyrights)
# This site uses cookies to offer you a better browsing experience. Kindly read the Terms of Service & Privacy policy and continue only if you agree.
# Copyrights, wherever applicable: IndianGuitarChords.Blogspot.Com (™ ©) / Arindam Sarkar © - MMVIII - MMXVI