Desi Chords:

0 comment(s) so far...have your say!

Aap Jaisa Koi Meri Zindagi Mein Aaye (Qurbani) : Tabs, Notes


qrcode for - Aap Jaisa Koi Meri Zindagi Mein Aaye (Qurbani) : Tabs, NotesSong: Aap Jaisa Koi
Artist: Nazia Hassan
From: Qurbani (1980)


View: {Chords} - {Strum & Analysis} - {Tabs} - {Plain Lyrics} - {Videos}


Guitar Tabs:
Intro:

|Em - - - -  - -  - -|Am - - - - - - - -|
E----------------------------------------
A---2---------2--------------------------
D-22-02-222-22-02-222--2---------2-------
G--------------------22-02-222-22-02-222-
B----------------------------------------
e---------------------------------------- (repeats)


Aap jaisa koi meri zindagi mein aaye,
E------------------------------------
A-225-----5-22-5---------------------
D----2-222------2-22-----------------
G------------------------------------
B------------------------------------
e------------------------------------

Toh baat ban jaaye! / Haan haan, baat ban jaaye.
E------------------------------------
A---------------------5--------------
D-225---2---------525--5-------------
G----22--2--42h4-4------4------------
B---------1--------------------------
e------------------------------------


Phool ko bahaar, bahaar ko chaman;
Dil ko dil, badan ko badan!
E------------------------------------
A------------------------------------
D-2202--22202--5p255--5----5---------
G----------------------2h42-2-2h4----
B------------------------------------
e------------------------------------

Har kisiko chahiye tan ka milan -
E------------------------------------
A------------5-5---------------------
D-5-------------22-------------------
G-4-4-44-44--------------------------
B----------3-------------------------
e------------------------------------

Kash mujhpar aisa dil aapka bhi aaye!
E------------------------------------
A------------------------------------
D-252-55s7---5-----------------------
G---------442-22s4-------------------
B------------------------------------
e------------------------------------

Toh baat ban jaaye! / Haan haan, baat ban jaaye.
E------------------------------------
A---------------------5--------------
D-225---2---------525--5-------------
G----22--2--42h4-4------4------------
B---------1--------------------------
e------------------------------------

Original Scale: G major


Learn What do these symbols mean: Reading Tabs...
http://desichords.blogspot.com/2012/10/aap-jaisa-koi-meri-zindagi-mein-aaye_5651.html




Liked 'Aap Jaisa Koi Meri Zindagi Mein Aaye (Qurbani) : Tabs, Notes' enough to share / save?

Aap Jaisa Koi Meri Zindagi Mein Aaye (Qurbani) : Tabs, Notes

Comments: 0 comment(s)...have your say!

DesiChords Tip:

Tune your guitar before you start playing.^Top^


 


# Hosted for free on Blogspot.com / "Powered by Blogger." Get yours today at www.blogger.com
# The material collected and made available through these sites is exclusively intended for private study, research & to provide study material for musicians - in good faith. (Copyrights)
# This site uses cookies to offer you a better browsing experience. Kindly read the Terms of Service & Privacy policy and continue only if you agree.
# Copyrights, wherever applicable: IndianGuitarChords.Blogspot.Com (™ ©) / Arindam Sarkar © - MMVIII - MMXVI