Desi Chords:

0 comment(s) so far...have your say!

Disco Deewane (Nazia Hassan) : Tabs, Notes


qrcode for - Disco Deewane (Nazia Hassan) : Tabs, NotesSong: Disco Deewane (original)
Artist: Nazia Hassan, Zoheb Hassan
From: Disco Deewane (1981)


View: {Chords} - {Strum & Analysis} - {Tabs} - {Plain Lyrics} - {Videos}


Guitar Tabs:
|C#---|A#m---|F#---|G#-G#7-|
La la......La la.... (repeats - interludes)
E---------------------------------------------------
A---------------------------------------------------
D---------------------------------------------------
G---6-----------------------------------------------
B-6--6--6-----6----67--446677-----------------------
e--4--4--46894-4689----------446688(13)(13)(11)(11)-


Disco deewane...aa haan, aa haan...
Ho! Disco deewane...aa haan, aa haan...
E------------------------------------
A------------------------------------
D------------------------------------
G------------------------------------
B-6-------67-67---6------67-67-------
e--46-986------4h6-46-986------------


Nasheeli hai raat, haaton mein haat,
Nachen sitaron ke saath...
E------------------------------------
A------------------------------------
D------------------------------------
G------------------------------------
B--------------------779-779-4-------
e-44h6644h6-4h6644h6-----------------


sundar badan, yeh chanchal dahel,
Naachen gaayen saath...
E------------------------------------
A------------------------------------
D------------------------------------
G------------------------------------
B--------------------467-----6-------
e-44h6644h6-4h6644h6----6-986--------


Original Scale: C# major


Learn What do these symbols mean: Reading Tabs...
http://desichords.blogspot.com/2012/10/disco-deewane-nazia-hassan-tabs-notes.html




Liked 'Disco Deewane (Nazia Hassan) : Tabs, Notes' enough to share / save?

Disco Deewane (Nazia Hassan) : Tabs, Notes

Comments: 0 comment(s)...have your say!

DesiChords Tip:

Tune your guitar before you start playing.^Top^


 


# Hosted for free on Blogspot.com / "Powered by Blogger." Get yours today at www.blogger.com
# The material collected and made available through these sites is exclusively intended for private study, research & to provide study material for musicians - in good faith. (Copyrights)
# This site uses cookies to offer you a better browsing experience. Kindly read the Terms of Service & Privacy policy and continue only if you agree.
# Copyrights, wherever applicable: IndianGuitarChords.Blogspot.Com (™ ©) / Arindam Sarkar © - MMVIII - MMXVI