Desi Chords:

2 comment(s) so far...have your say!

Daya Kar Daan (KV Morning Prayer - Scout Prayer) : Tabs, Notes


qrcode for - Daya Kar Daan (KV Morning Prayer - Scout Prayer) : Tabs, NotesSong: Daya Kar Daan
Known For: KV Morning Prayer / Scout Prayer


View: {Chords} - {Strum & Analysis} - {Tabs} - {Plain Lyrics} - {Song & Videos}


Guitar Tabs:
Asato-ma sad gamaya / Tamaso-ma yotirgamaya / Mrityor-ma-amritan gamaya
E------------------------------------
A------------------------------------
D------------------------------------
G-55----5------55----5----55----5----
B---34-3-343-----34-3-343---34-3-343-
e------------------------------------


Daya kar daan vidya ka hamein parmatma dena.
E------------------------------------
A------------------------------------
D---------------------5--------------
G--------------------4-45-5----------
B-33------3---3-35313----3-3---------
e---3351-0-010-----------------------


Daya karna, hamari atma mein, shuddhata dena.
E------------------------------------
A------------------------------------
D------------------------------------
G------------------------------------
B------------------------4-----------
e-33-31-35-55356-653-34-3-23523-------

(rest - same pattern)


Original Scale: F major


Learn What do these symbols mean: Reading Tabs...
http://desichords.blogspot.com/2013/01/daya-kar-daan-kv-morning-prayer-scout_1730.html




Liked 'Daya Kar Daan (KV Morning Prayer - Scout Prayer) : Tabs, Notes' enough to share / save?

Daya Kar Daan (KV Morning Prayer - Scout Prayer) : Tabs, Notes

Comments: 2 comment(s)...have your say!

Nikunj Sharmasaid...

thanku very much sir n a happy new year 2 u.....

Arindam Sarkarsaid...

Welcome Nikunj. Happy new year 2013 to you too. :)

DesiChords Tip:

Tune your guitar before you start playing.^Top^


 


# Hosted for free on Blogspot.com / "Powered by Blogger." Get yours today at www.blogger.com
# The material collected and made available through these sites is exclusively intended for private study, research & to provide study material for musicians - in good faith. (Copyrights)
# This site uses cookies to offer you a better browsing experience. Kindly read the Terms of Service & Privacy policy and continue only if you agree.
# Copyrights, wherever applicable: IndianGuitarChords.Blogspot.Com (™ ©) / Arindam Sarkar © - MMVIII - MMXVI