Desi Chords:

0 comment(s) so far...have your say!

Ganga Behti Ho Kyon (Bhupen Hazarika) : Tabs, Notes


qrcode for - Ganga Behti Ho Kyon (Bhupen Hazarika) : Tabs, NotesSong: Ganga Behti Ho Kyon
Artist: Bhupen Hazarika
From: (single) (1950s)


View: {Chords} - {Strum & Analysis} - {Tabs} - {Plain Lyrics} - {Song & Videos}


Guitar Tabs:
Vistaar hai apaar, praja dono par/ Kare hahakaar, nishshabd sada /
O Ganga tum, Ganga behti ho kyun?

E-------------------------------------------------------
A-------------------------------------------------------
D-----4--------4----------------------------------------
G-44-4-1h4-44-4-1h4---------------------------------6p4-
B-------------------2h4-------444-4p2-2--4p2-2--4p22----
e----------------------2-4p2-2---------22-----22--------

Naitikata nasht hui; / Maanavta bhrasht hui / Nirlajj bhav-se behti ho kyun?

E------------------------------------------------
A------------------------------------------------
D------------------------------------------------
G------------------------------4-----------------
B---7997--79---7997--79---777-4-2-2h4p2h4p2------
e-77----77---77----77---77-----------------------


Itihaas ki pukaar, karey hoonkaar / O Ganga ki dhaar, nirbal jan ko,

E-----------------------------------------
A-----------------------------------------
D------4------4---------------------------
G-444-4-1h4-44-4-1h4----------------------
B--------------------22h4------------------
e-------------------------22-2h4p2-477-797--


Sabal sangrami, samagragaami / Banati nahi ho kyun?

E--------------------------------------------------------
A--------------------------------------------------------
D--------------------------------------------------------
G--------------------------------------------------------
B--------------------------------------------------------
e-99h(11)9h(11)97--99h(11)9h(11)97--99h(11)9h(11)97-99p7-


Original Scale: B major


Learn What do these symbols mean: Reading Tabs...
http://desichords.blogspot.com/2013/01/ganga-behti-ho-kyon-bhupen-hazarika_4.html




Liked 'Ganga Behti Ho Kyon (Bhupen Hazarika) : Tabs, Notes' enough to share / save?

Ganga Behti Ho Kyon (Bhupen Hazarika) : Tabs, Notes

Comments: 0 comment(s)...have your say!

DesiChords Tip:

Tune your guitar before you start playing.^Top^


 


# Hosted for free on Blogspot.com / "Powered by Blogger." Get yours today at www.blogger.com
# The material collected and made available through these sites is exclusively intended for private study, research & to provide study material for musicians - in good faith. (Copyrights)
# This site uses cookies to offer you a better browsing experience. Kindly read the Terms of Service & Privacy policy and continue only if you agree.
# Copyrights, wherever applicable: IndianGuitarChords.Blogspot.Com (™ ©) / Arindam Sarkar © - MMVIII - MMXVI