Desi Chords:

2 comment(s) so far...have your say!

Dum Maro Dum Mit Jaaye Gum : Tabs, Notes


qrcode for - Dum Maro Dum Mit Jaaye Gum : Tabs, NotesSong: Dum Maro Dum Mit Jaaye Gum
Artist: Asha Bhosle
From: Hare Rama Hare Krishna (1971)


View: {Chords} - {Strum & Analysis} - {Tabs} - {Plain Lyrics} - {Song & Videos}


Guitar Tabs:
Theme / Interlude:
E------------------------------------
A------------------------------------
D-8----------------------------------
G-88-8-------8-----------------------
B----6h7-777-6h7---------------------
e------------------------------------ (repeats)

Dum maro dum! / Mit jaye gham.
Bolo subah shaam, / Hare Krishna Hare Raam!
E---------------------------------------
A---------------------------------------
D---------------------------------------
G-8---8----88---8----868-------------88-
B--67--6h7---67--6h7----6-44h6-7676-7---
e--------------------------------------- 
(interlude has to be interspersed between lines)

Duniya ne humko diya kya?
Duniya se hamne liya kya?
E------------------------------------
A------------------------------------
D-----------6------------4-----------
G--------6-6---666-6--4-4------------
B-444-464-----------64---------------
e------------------------------------

Hum sabki parwa karein kyun?
Sabne hamara kiya kya?
E------------------------------------
A------------------------------------
D------------------------------------
G-444-446-4h6-4h6-666-667-644--------
B------------------------------------
e------------------------------------


Original Scale: Eb minor


Learn What do these symbols mean: Reading Tabs...
http://desichords.blogspot.com/2013/09/dum-maro-dum-mit-jaaye-gum-tabs-notes.html




Liked 'Dum Maro Dum Mit Jaaye Gum : Tabs, Notes' enough to share / save?

Dum Maro Dum Mit Jaaye Gum : Tabs, Notes

Comments: 2 comment(s)...have your say!

Sashwat Tareniasaid...

excellent tabs dada

Arindam Sarkarsaid...

Thank you dada :)

DesiChords Tip:

Tune your guitar before you start playing.^Top^


 


# Hosted for free on Blogspot.com / "Powered by Blogger." Get yours today at www.blogger.com
# The material collected and made available through these sites is exclusively intended for private study, research & to provide study material for musicians - in good faith. (Copyrights)
# This site uses cookies to offer you a better browsing experience. Kindly read the Terms of Service & Privacy policy and continue only if you agree.
# Copyrights, wherever applicable: IndianGuitarChords.Blogspot.Com (™ ©) / Arindam Sarkar © - MMVIII - MMXVI